ISO-10303-21;
HEADER;
FILE_DESCRIPTION (( 'STEP AP203' ),
    '1' );
FILE_NAME ('Q-OZHWP-R2-20-266-M.STEP',
    '2020-12-22T09:16:11',
    ( '' ),
    ( '' ),
    'SwSTEP 2.0',
    'SolidWorks 2020',
    '' );
FILE_SCHEMA (( 'CONFIG_CONTROL_DESIGN' ));
ENDSEC;

DATA;
#1 = UNCERTAINTY_MEASURE_WITH_UNIT (LENGTH_MEASURE( 1.000000000000000082E-05 ), #107, 'distance_accuracy_value', 'NONE');
#2 = LOCAL_TIME ( 17, 16, 11.00000000000000000, #180 ) ;
#3 = ORIENTED_EDGE ( 'NONE', *, *, #232, .F. ) ;
#4 = FACE_OUTER_BOUND ( 'NONE', #168, .T. ) ;
#5 = PLANE ( 'NONE',  #301 ) ;
#6 = VECTOR ( 'NONE', #11, 1000.000000000000000 ) ;
#7 = CARTESIAN_POINT ( 'NONE',  ( -1.614212418857619014, 0.000000000000000000, 0.000000000000000000 ) ) ;
#8 = APPROVAL ( #192, 'UNSPECIFIED' ) ;
#9 = CARTESIAN_POINT ( 'NONE',  ( -1.614212418857619014, 0.000000000000000000, 10.00000000000000000 ) ) ;
#10 = PERSON_AND_ORGANIZATION ( #174, #246 ) ;
#11 = DIRECTION ( 'NONE',  ( -1.000000000000000000, -0.000000000000000000, -0.000000000000000000 ) ) ;
#12 = CARTESIAN_POINT ( 'NONE',  ( -1.614212418857619014, 0.000000000000000000, 0.000000000000000000 ) ) ;
#13 = CALENDAR_DATE ( 2020, 22, 12 ) ;
#14 = CALENDAR_DATE ( 2020, 22, 12 ) ;
#15 = SECURITY_CLASSIFICATION ( '', '', #63 ) ;
#16 = APPLICATION_CONTEXT ( 'configuration controlled 3d designs of mechanical parts and assemblies' ) ;
#17 = EDGE_CURVE ( 'NONE', #218, #144, #46, .T. ) ;
#18 = ORIENTED_EDGE ( 'NONE', *, *, #72, .T. ) ;
#19 = DIRECTION ( 'NONE',  ( -1.000000000000000000, -0.000000000000000000, -0.000000000000000000 ) ) ;
#20 = ORIENTED_EDGE ( 'NONE', *, *, #305, .F. ) ;
#21 = ORIENTED_EDGE ( 'NONE', *, *, #166, .F. ) ;
#22 = VERTEX_POINT ( 'NONE', #203 ) ;
#23 = AXIS2_PLACEMENT_3D ( 'NONE', #111, #212, #89 ) ;
#24 = ORIENTED_EDGE ( 'NONE', *, *, #274, .T. ) ;
#25 = DIRECTION ( 'NONE',  ( -1.000000000000000000, 0.000000000000000000, -0.000000000000000000 ) ) ;
#26 = ADVANCED_FACE ( 'NONE', ( #228 ), #126, .T. ) ;
#27 = EDGE_LOOP ( 'NONE', ( #226, #283 ) ) ;
#28 = LINE ( 'NONE', #281, #74 ) ;
#29 = CARTESIAN_POINT ( 'NONE',  ( -2.500000000000000444, 0.000000000000000000, 0.000000000000000000 ) ) ;
#30 = ORIENTED_EDGE ( 'NONE', *, *, #72, .F. ) ;
#31 = DIRECTION ( 'NONE',  ( 0.000000000000000000, 0.000000000000000000, 1.000000000000000000 ) ) ;
#32 = APPROVAL_STATUS ( 'not_yet_approved' ) ;
#33 = AXIS2_PLACEMENT_3D ( 'NONE', #7, #108, #296 ) ;
#34 = AXIS2_PLACEMENT_3D ( 'NONE', #255, #132, #79 ) ;
#35 = DIRECTION ( 'NONE',  ( 0.000000000000000000, 0.000000000000000000, 1.000000000000000000 ) ) ;
#36 = APPROVAL_DATE_TIME ( #159, #270 ) ;
#37 = LINE ( 'NONE', #9, #50 ) ;
#38 = DATE_TIME_ROLE ( 'creation_date' ) ;
#39 = APPROVAL_ROLE ( '' ) ;
#40 = ORIENTED_EDGE ( 'NONE', *, *, #245, .F. ) ;
#41 = VERTEX_POINT ( 'NONE', #130 ) ;
#42 = CC_DESIGN_APPROVAL ( #204, ( #194 ) ) ;
#43 = ORIENTED_EDGE ( 'NONE', *, *, #160, .F. ) ;
#44 = ORIENTED_EDGE ( 'NONE', *, *, #146, .T. ) ;
#45 = CIRCLE ( 'NONE', #229, 10.00000000000000000 ) ;
#46 = CIRCLE ( 'NONE', #34, 12.69999999999999929 ) ;
#47 = CARTESIAN_POINT ( 'NONE',  ( -3.000000000000000444, 1.224646799147353256E-15, -10.00000000000000000 ) ) ;
#48 = VERTEX_POINT ( 'NONE', #49 ) ;
#49 = CARTESIAN_POINT ( 'NONE',  ( -2.500000000000000444, 0.000000000000000000, 10.00000000000000000 ) ) ;
#50 = VECTOR ( 'NONE', #58, 1000.000000000000000 ) ;
#51 = VERTEX_POINT ( 'NONE', #253 ) ;
#52 = EDGE_CURVE ( 'NONE', #51, #77, #28, .T. ) ;
#53 = CARTESIAN_POINT ( 'NONE',  ( -2.500000000000000444, 10.00000000000000000, 0.000000000000000000 ) ) ;
#54 = APPROVAL_PERSON_ORGANIZATION ( #68, #8, #221 ) ;
#55 = DIRECTION ( 'NONE',  ( -1.000000000000000000, -0.000000000000000000, -0.000000000000000000 ) ) ;
#56 = DIRECTION ( 'NONE',  ( 1.000000000000000000, 0.000000000000000000, 0.000000000000000000 ) ) ;
#57 = COORDINATED_UNIVERSAL_TIME_OFFSET ( 8, 0, .AHEAD. ) ;
#58 = DIRECTION ( 'NONE',  ( -1.000000000000000000, -0.000000000000000000, -0.000000000000000000 ) ) ;
#59 = APPROVAL_ROLE ( '' ) ;
#60 = CARTESIAN_POINT ( 'NONE',  ( -1.614212418857619014, 0.000000000000000000, 12.69999999999999929 ) ) ;
#61 = CYLINDRICAL_SURFACE ( 'NONE', #86, 12.69999999999999929 ) ;
#62 = CYLINDRICAL_SURFACE ( 'NONE', #33, 10.00000000000000000 ) ;
#63 = SECURITY_CLASSIFICATION_LEVEL ( 'unclassified' ) ;
#64 = PERSON_AND_ORGANIZATION ( #174, #246 ) ;
#65 = AXIS2_PLACEMENT_3D ( 'NONE', #292, #142, #242 ) ;
#66 = CYLINDRICAL_SURFACE ( 'NONE', #311, 10.00000000000000000 ) ;
#67 = ORIENTED_EDGE ( 'NONE', *, *, #305, .T. ) ;
#68 = PERSON_AND_ORGANIZATION ( #174, #246 ) ;
#69 = AXIS2_PLACEMENT_3D ( 'NONE', #236, #83, #182 ) ;
#70 = VERTEX_POINT ( 'NONE', #177 ) ;
#71 = CARTESIAN_POINT ( 'NONE',  ( 2.500000000000000444, 10.00000000000000000, 0.000000000000000000 ) ) ;
#72 = EDGE_CURVE ( 'NONE', #48, #51, #308, .T. ) ;
#73 = CIRCLE ( 'NONE', #217, 10.00000000000000000 ) ;
#74 = VECTOR ( 'NONE', #309, 1000.000000000000000 ) ;
#75 = ORIENTED_EDGE ( 'NONE', *, *, #185, .F. ) ;
#76 = AXIS2_PLACEMENT_3D ( 'NONE', #71, #25, #125 ) ;
#77 = VERTEX_POINT ( 'NONE', #47 ) ;
#78 = EDGE_LOOP ( 'NONE', ( #165, #98 ) ) ;
#79 = DIRECTION ( 'NONE',  ( 0.000000000000000000, 0.000000000000000000, 1.000000000000000000 ) ) ;
#80 = CARTESIAN_POINT ( 'NONE',  ( -3.000000000000000444, 0.000000000000000000, 10.00000000000000000 ) ) ;
#81 = PLANE ( 'NONE',  #329 ) ;
#82 = ADVANCED_FACE ( 'NONE', ( #4 ), #200, .F. ) ;
#83 = DIRECTION ( 'NONE',  ( -1.000000000000000000, -0.000000000000000000, -0.000000000000000000 ) ) ;
#84 = DATE_AND_TIME ( #116, #279 ) ;
#85 = CC_DESIGN_DATE_AND_TIME_ASSIGNMENT ( #247, #121, ( #15 ) ) ;
#86 = AXIS2_PLACEMENT_3D ( 'NONE', #12, #233, #87 ) ;
#87 = DIRECTION ( 'NONE',  ( 0.000000000000000000, 0.000000000000000000, 1.000000000000000000 ) ) ;
#88 = APPROVAL_STATUS ( 'not_yet_approved' ) ;
#89 = DIRECTION ( 'NONE',  ( 0.000000000000000000, 0.000000000000000000, 1.000000000000000000 ) ) ;
#90 = AXIS2_PLACEMENT_3D ( 'NONE', #106, #211, #133 ) ;
#91 = CALENDAR_DATE ( 2020, 22, 12 ) ;
#92 = APPLICATION_CONTEXT ( 'configuration controlled 3d designs of mechanical parts and assemblies' ) ;
#93 = DIRECTION ( 'NONE',  ( -1.000000000000000000, -0.000000000000000000, -0.000000000000000000 ) ) ;
#94 = ADVANCED_FACE ( 'NONE', ( #224 ), #285, .F. ) ;
#95 = VERTEX_POINT ( 'NONE', #307 ) ;
#96 = ORIENTED_EDGE ( 'NONE', *, *, #166, .T. ) ;
#97 = CALENDAR_DATE ( 2020, 22, 12 ) ;
#98 = ORIENTED_EDGE ( 'NONE', *, *, #17, .F. ) ;
#99 = CC_DESIGN_APPROVAL ( #8, ( #15 ) ) ;
#100 = ORIENTED_EDGE ( 'NONE', *, *, #331, .F. ) ;
#101 = DIRECTION ( 'NONE',  ( 0.000000000000000000, 0.000000000000000000, 1.000000000000000000 ) ) ;
#102 = ADVANCED_FACE ( 'NONE', ( #282, #163 ), #109, .F. ) ;
#103 = ORIENTED_EDGE ( 'NONE', *, *, #140, .T. ) ;
#104 = CARTESIAN_POINT ( 'NONE',  ( -1.614212418857619014, 0.000000000000000000, 0.000000000000000000 ) ) ;
#105 = LINE ( 'NONE', #261, #191 ) ;
#106 = CARTESIAN_POINT ( 'NONE',  ( 2.999999999999999112, 12.69999999999999929, 0.000000000000000000 ) ) ;
#107 =( LENGTH_UNIT ( ) NAMED_UNIT ( * ) SI_UNIT ( .MILLI., .METRE. ) );
#108 = DIRECTION ( 'NONE',  ( -1.000000000000000000, -0.000000000000000000, -0.000000000000000000 ) ) ;
#109 = PLANE ( 'NONE',  #90 ) ;
#110 = PERSON_AND_ORGANIZATION_ROLE ( 'classification_officer' ) ;
#111 = CARTESIAN_POINT ( 'NONE',  ( -3.000000000000000000, 0.000000000000000000, 0.000000000000000000 ) ) ;
#112 = DIRECTION ( 'NONE',  ( 0.000000000000000000, 0.000000000000000000, -1.000000000000000000 ) ) ;
#113 = DATE_AND_TIME ( #13, #2 ) ;
#114 = CARTESIAN_POINT ( 'NONE',  ( -3.000000000000000000, 1.555301434917138433E-15, -12.69999999999999929 ) ) ;
#115 = CC_DESIGN_PERSON_AND_ORGANIZATION_ASSIGNMENT ( #64, #267, ( #334 ) ) ;
#116 = CALENDAR_DATE ( 2020, 22, 12 ) ;
#117 = DIRECTION ( 'NONE',  ( 0.000000000000000000, 0.000000000000000000, 1.000000000000000000 ) ) ;
#118 = AXIS2_PLACEMENT_3D ( 'NONE', #205, #199, #101 ) ;
#119 = ORIENTED_EDGE ( 'NONE', *, *, #232, .T. ) ;
#120 = PRODUCT_DEFINITION_SHAPE ( 'NONE', 'NONE',  #194 ) ;
#121 = DATE_TIME_ROLE ( 'classification_date' ) ;
#122 = ORIENTED_EDGE ( 'NONE', *, *, #52, .T. ) ;
#123 = ADVANCED_FACE ( 'NONE', ( #208 ), #214, .F. ) ;
#124 = EDGE_LOOP ( 'NONE', ( #196, #278 ) ) ;
#125 = DIRECTION ( 'NONE',  ( -0.000000000000000000, 0.000000000000000000, 1.000000000000000000 ) ) ;
#126 = CYLINDRICAL_SURFACE ( 'NONE', #118, 12.69999999999999929 ) ;
#127 = AXIS2_PLACEMENT_3D ( 'NONE', #188, #298, #31 ) ;
#128 = VERTEX_POINT ( 'NONE', #114 ) ;
#129 = PRODUCT_DEFINITION_FORMATION_WITH_SPECIFIED_SOURCE ( 'ANY', '', #334, .NOT_KNOWN. ) ;
#130 = CARTESIAN_POINT ( 'NONE',  ( 2.999999999999999112, 0.000000000000000000, 10.00000000000000000 ) ) ;
#131 = LINE ( 'NONE', #235, #6 ) ;
#132 = DIRECTION ( 'NONE',  ( -1.000000000000000000, -0.000000000000000000, -0.000000000000000000 ) ) ;
#133 = DIRECTION ( 'NONE',  ( -0.000000000000000000, 0.000000000000000000, 1.000000000000000000 ) ) ;
#134 = CARTESIAN_POINT ( 'NONE',  ( -1.614212418857619014, 0.000000000000000000, 0.000000000000000000 ) ) ;
#135 = PERSON_AND_ORGANIZATION ( #174, #246 ) ;
#136 = FACE_OUTER_BOUND ( 'NONE', #252, .T. ) ;
#137 = FACE_OUTER_BOUND ( 'NONE', #303, .T. ) ;
#138 = CC_DESIGN_DATE_AND_TIME_ASSIGNMENT ( #84, #38, ( #194 ) ) ;
#139 = CARTESIAN_POINT ( 'NONE',  ( 3.000000000000000000, 1.555301434917138433E-15, -12.69999999999999929 ) ) ;
#140 = EDGE_CURVE ( 'NONE', #48, #327, #37, .T. ) ;
#141 = ORIENTED_EDGE ( 'NONE', *, *, #17, .T. ) ;
#142 = DIRECTION ( 'NONE',  ( -1.000000000000000000, -0.000000000000000000, -0.000000000000000000 ) ) ;
#143 = APPROVAL_PERSON_ORGANIZATION ( #317, #204, #39 ) ;
#144 = VERTEX_POINT ( 'NONE', #294 ) ;
#145 = ORIENTED_EDGE ( 'NONE', *, *, #140, .F. ) ;
#146 = EDGE_CURVE ( 'NONE', #218, #128, #216, .T. ) ;
#147 = ADVANCED_FACE ( 'NONE', ( #265, #313 ), #81, .F. ) ;
#148 = EDGE_LOOP ( 'NONE', ( #275, #257, #67, #96 ) ) ;
#149 = DIRECTION ( 'NONE',  ( -1.000000000000000000, -0.000000000000000000, -0.000000000000000000 ) ) ;
#150 = ORIENTED_EDGE ( 'NONE', *, *, #52, .F. ) ;
#151 = ORIENTED_EDGE ( 'NONE', *, *, #289, .F. ) ;
#152 = CC_DESIGN_APPROVAL ( #270, ( #129 ) ) ;
#153 = DIRECTION ( 'NONE',  ( 1.000000000000000000, 0.000000000000000000, 0.000000000000000000 ) ) ;
#154 = ADVANCED_FACE ( 'NONE', ( #137 ), #61, .T. ) ;
#155 = CARTESIAN_POINT ( 'NONE',  ( 2.999999999999999112, 0.000000000000000000, 0.000000000000000000 ) ) ;
#156 = CIRCLE ( 'NONE', #69, 10.00000000000000000 ) ;
#157 = AXIS2_PLACEMENT_3D ( 'NONE', #29, #227, #306 ) ;
#158 = CARTESIAN_POINT ( 'NONE',  ( -3.000000000000000444, 0.000000000000000000, 0.000000000000000000 ) ) ;
#159 = DATE_AND_TIME ( #91, #170 ) ;
#160 = EDGE_CURVE ( 'NONE', #22, #41, #73, .T. ) ;
#161 = CARTESIAN_POINT ( 'NONE',  ( -1.614212418857619014, 1.555301434917138433E-15, -12.69999999999999929 ) ) ;
#162 = PERSON_AND_ORGANIZATION ( #174, #246 ) ;
#163 = FACE_BOUND ( 'NONE', #27, .T. ) ;
#164 = DIRECTION ( 'NONE',  ( 1.000000000000000000, 0.000000000000000000, 0.000000000000000000 ) ) ;
#165 = ORIENTED_EDGE ( 'NONE', *, *, #293, .F. ) ;
#166 = EDGE_CURVE ( 'NONE', #95, #284, #276, .T. ) ;
#167 = CC_DESIGN_PERSON_AND_ORGANIZATION_ASSIGNMENT ( #10, #189, ( #129 ) ) ;
#168 = EDGE_LOOP ( 'NONE', ( #43, #24, #198, #20 ) ) ;
#169 = DATE_AND_TIME ( #97, #240 ) ;
#170 = LOCAL_TIME ( 17, 16, 11.00000000000000000, #321 ) ;
#171 = ORIENTED_EDGE ( 'NONE', *, *, #293, .T. ) ;
#172 = ADVANCED_FACE ( 'NONE', ( #230 ), #62, .F. ) ;
#173 = DIRECTION ( 'NONE',  ( 0.000000000000000000, 0.000000000000000000, 1.000000000000000000 ) ) ;
#174 = PERSON ( 'UNSPECIFIED', 'UNSPECIFIED', 'UNSPECIFIED', ('UNSPECIFIED'), ('UNSPECIFIED'), ('UNSPECIFIED') ) ;
#175 = EDGE_LOOP ( 'NONE', ( #21, #75 ) ) ;
#176 = AXIS2_PLACEMENT_3D ( 'NONE', #186, #238, #112 ) ;
#177 = CARTESIAN_POINT ( 'NONE',  ( -3.000000000000000000, 0.000000000000000000, 12.69999999999999929 ) ) ;
#178 = ADVANCED_BREP_SHAPE_REPRESENTATION ( 'Q-OZHWP-R2-20-266-M', ( #243, #264 ), #330 ) ;
#179 = DIRECTION ( 'NONE',  ( 0.000000000000000000, 0.000000000000000000, 1.000000000000000000 ) ) ;
#180 = COORDINATED_UNIVERSAL_TIME_OFFSET ( 8, 0, .AHEAD. ) ;
#181 = CC_DESIGN_PERSON_AND_ORGANIZATION_ASSIGNMENT ( #162, #110, ( #15 ) ) ;
#182 = DIRECTION ( 'NONE',  ( 0.000000000000000000, 0.000000000000000000, 1.000000000000000000 ) ) ;
#183 = PERSON_AND_ORGANIZATION ( #174, #246 ) ;
#184 = AXIS2_PLACEMENT_3D ( 'NONE', #134, #93, #179 ) ;
#185 = EDGE_CURVE ( 'NONE', #284, #95, #319, .T. ) ;
#186 = CARTESIAN_POINT ( 'NONE',  ( -2.500000000000000444, 0.000000000000000000, 0.000000000000000000 ) ) ;
#187 = CARTESIAN_POINT ( 'NONE',  ( 2.500000000000000888, 1.224646799147353256E-15, -10.00000000000000000 ) ) ;
#188 = CARTESIAN_POINT ( 'NONE',  ( 2.500000000000000888, 0.000000000000000000, 0.000000000000000000 ) ) ;
#189 = PERSON_AND_ORGANIZATION_ROLE ( 'design_supplier' ) ;
#190 = CARTESIAN_POINT ( 'NONE',  ( 0.000000000000000000, 0.000000000000000000, 0.000000000000000000 ) ) ;
#191 = VECTOR ( 'NONE', #207, 1000.000000000000000 ) ;
#192 = APPROVAL_STATUS ( 'not_yet_approved' ) ;
#193 = ORIENTED_EDGE ( 'NONE', *, *, #245, .T. ) ;
#194 = PRODUCT_DEFINITION ( 'UNKNOWN', '', #129, #202 ) ;
#195 = CIRCLE ( 'NONE', #176, 10.00000000000000000 ) ;
#196 = ORIENTED_EDGE ( 'NONE', *, *, #289, .T. ) ;
#197 = LOCAL_TIME ( 17, 16, 11.00000000000000000, #239 ) ;
#198 = ORIENTED_EDGE ( 'NONE', *, *, #185, .T. ) ;
#199 = DIRECTION ( 'NONE',  ( -1.000000000000000000, -0.000000000000000000, -0.000000000000000000 ) ) ;
#200 = CYLINDRICAL_SURFACE ( 'NONE', #219, 10.00000000000000000 ) ;
#201 = CIRCLE ( 'NONE', #65, 12.69999999999999929 ) ;
#202 = DESIGN_CONTEXT ( 'detailed design', #92, 'design' ) ;
#203 = CARTESIAN_POINT ( 'NONE',  ( 2.999999999999999112, 1.224646799147353256E-15, -10.00000000000000000 ) ) ;
#204 = APPROVAL ( #88, 'UNSPECIFIED' ) ;
#205 = CARTESIAN_POINT ( 'NONE',  ( -1.614212418857619014, 0.000000000000000000, 0.000000000000000000 ) ) ;
#206 = CIRCLE ( 'NONE', #251, 12.69999999999999929 ) ;
#207 = DIRECTION ( 'NONE',  ( -1.000000000000000000, -0.000000000000000000, -0.000000000000000000 ) ) ;
#208 = FACE_OUTER_BOUND ( 'NONE', #148, .T. ) ;
#209 = PRODUCT_RELATED_PRODUCT_CATEGORY ( 'detail', '', ( #334 ) ) ;
#210 = CARTESIAN_POINT ( 'NONE',  ( 2.500000000000000888, 0.000000000000000000, 0.000000000000000000 ) ) ;
#211 = DIRECTION ( 'NONE',  ( -1.000000000000000000, 0.000000000000000000, -0.000000000000000000 ) ) ;
#212 = DIRECTION ( 'NONE',  ( -1.000000000000000000, -0.000000000000000000, -0.000000000000000000 ) ) ;
#213 = AXIS2_PLACEMENT_3D ( 'NONE', #210, #266, #316 ) ;
#214 = CYLINDRICAL_SURFACE ( 'NONE', #184, 10.00000000000000000 ) ;
#215 = PERSON_AND_ORGANIZATION_ROLE ( 'creator' ) ;
#216 = LINE ( 'NONE', #161, #335 ) ;
#217 = AXIS2_PLACEMENT_3D ( 'NONE', #155, #318, #259 ) ;
#218 = VERTEX_POINT ( 'NONE', #139 ) ;
#219 = AXIS2_PLACEMENT_3D ( 'NONE', #104, #149, #173 ) ;
#220 = EDGE_CURVE ( 'NONE', #41, #22, #156, .T. ) ;
#221 = APPROVAL_ROLE ( '' ) ;
#222 = EDGE_LOOP ( 'NONE', ( #171, #44, #151, #40 ) ) ;
#223 = ORIENTED_EDGE ( 'NONE', *, *, #331, .T. ) ;
#224 = FACE_OUTER_BOUND ( 'NONE', #175, .T. ) ;
#225 = EDGE_CURVE ( 'NONE', #77, #327, #254, .T. ) ;
#226 = ORIENTED_EDGE ( 'NONE', *, *, #220, .T. ) ;
#227 = DIRECTION ( 'NONE',  ( 1.000000000000000000, 0.000000000000000000, 0.000000000000000000 ) ) ;
#228 = FACE_OUTER_BOUND ( 'NONE', #222, .T. ) ;
#229 = AXIS2_PLACEMENT_3D ( 'NONE', #288, #55, #258 ) ;
#230 = FACE_OUTER_BOUND ( 'NONE', #241, .T. ) ;
#231 = DIRECTION ( 'NONE',  ( 0.000000000000000000, 0.000000000000000000, 1.000000000000000000 ) ) ;
#232 = EDGE_CURVE ( 'NONE', #51, #48, #195, .T. ) ;
#233 = DIRECTION ( 'NONE',  ( -1.000000000000000000, -0.000000000000000000, -0.000000000000000000 ) ) ;
#234 = PERSON_AND_ORGANIZATION_ROLE ( 'creator' ) ;
#235 = CARTESIAN_POINT ( 'NONE',  ( -1.614212418857619014, 1.224646799147353256E-15, -10.00000000000000000 ) ) ;
#236 = CARTESIAN_POINT ( 'NONE',  ( 2.999999999999999112, 0.000000000000000000, 0.000000000000000000 ) ) ;
#237 = VECTOR ( 'NONE', #312, 1000.000000000000000 ) ;
#238 = DIRECTION ( 'NONE',  ( 1.000000000000000000, 0.000000000000000000, 0.000000000000000000 ) ) ;
#239 = COORDINATED_UNIVERSAL_TIME_OFFSET ( 8, 0, .AHEAD. ) ;
#240 = LOCAL_TIME ( 17, 16, 11.00000000000000000, #271 ) ;
#241 = EDGE_LOOP ( 'NONE', ( #18, #122, #280, #145 ) ) ;
#242 = DIRECTION ( 'NONE',  ( 0.000000000000000000, 0.000000000000000000, 1.000000000000000000 ) ) ;
#243 = MANIFOLD_SOLID_BREP ( 'Ðý×', #262 ) ;
#244 = ORIENTED_EDGE ( 'NONE', *, *, #146, .F. ) ;
#245 = EDGE_CURVE ( 'NONE', #144, #70, #325, .T. ) ;
#246 = ORGANIZATION ( 'UNSPECIFIED', 'UNSPECIFIED', '' ) ;
#247 = DATE_AND_TIME ( #14, #197 ) ;
#248 = ORIENTED_EDGE ( 'NONE', *, *, #225, .F. ) ;
#249 = EDGE_LOOP ( 'NONE', ( #30, #3 ) ) ;
#250 = ADVANCED_FACE ( 'NONE', ( #136 ), #66, .F. ) ;
#251 = AXIS2_PLACEMENT_3D ( 'NONE', #315, #19, #117 ) ;
#252 = EDGE_LOOP ( 'NONE', ( #150, #119, #103, #223 ) ) ;
#253 = CARTESIAN_POINT ( 'NONE',  ( -2.500000000000000444, 1.224646799147353256E-15, -10.00000000000000000 ) ) ;
#254 = CIRCLE ( 'NONE', #326, 10.00000000000000000 ) ;
#255 = CARTESIAN_POINT ( 'NONE',  ( 3.000000000000000000, 0.000000000000000000, 0.000000000000000000 ) ) ;
#256 = DIRECTION ( 'NONE',  ( 0.000000000000000000, 0.000000000000000000, -1.000000000000000000 ) ) ;
#257 = ORIENTED_EDGE ( 'NONE', *, *, #220, .F. ) ;
#258 = DIRECTION ( 'NONE',  ( 0.000000000000000000, 0.000000000000000000, 1.000000000000000000 ) ) ;
#259 = DIRECTION ( 'NONE',  ( 0.000000000000000000, 0.000000000000000000, 1.000000000000000000 ) ) ;
#260 = APPROVAL_DATE_TIME ( #113, #204 ) ;
#261 = CARTESIAN_POINT ( 'NONE',  ( -1.614212418857619014, 0.000000000000000000, 10.00000000000000000 ) ) ;
#262 = CLOSED_SHELL ( 'NONE', ( #26, #172, #82, #94, #123, #250, #147, #154, #102, #302 ) ) ;
#263 = DIRECTION ( 'NONE',  ( -1.000000000000000000, -0.000000000000000000, -0.000000000000000000 ) ) ;
#264 = AXIS2_PLACEMENT_3D ( 'NONE', #190, #231, #164 ) ;
#265 = FACE_BOUND ( 'NONE', #272, .T. ) ;
#266 = DIRECTION ( 'NONE',  ( -1.000000000000000000, -0.000000000000000000, -0.000000000000000000 ) ) ;
#267 = PERSON_AND_ORGANIZATION_ROLE ( 'design_owner' ) ;
#268 = CC_DESIGN_PERSON_AND_ORGANIZATION_ASSIGNMENT ( #135, #234, ( #129 ) ) ;
#269 = CIRCLE ( 'NONE', #23, 12.69999999999999929 ) ;
#270 = APPROVAL ( #32, 'UNSPECIFIED' ) ;
#271 = COORDINATED_UNIVERSAL_TIME_OFFSET ( 8, 0, .AHEAD. ) ;
#272 = EDGE_LOOP ( 'NONE', ( #100, #248 ) ) ;
#273 = CARTESIAN_POINT ( 'NONE',  ( -1.614212418857619014, 0.000000000000000000, 0.000000000000000000 ) ) ;
#274 = EDGE_CURVE ( 'NONE', #22, #284, #131, .T. ) ;
#275 = ORIENTED_EDGE ( 'NONE', *, *, #274, .F. ) ;
#276 = CIRCLE ( 'NONE', #127, 10.00000000000000000 ) ;
#277 = APPROVAL_DATE_TIME ( #169, #8 ) ;
#278 = ORIENTED_EDGE ( 'NONE', *, *, #287, .T. ) ;
#279 = LOCAL_TIME ( 17, 16, 11.00000000000000000, #57 ) ;
#280 = ORIENTED_EDGE ( 'NONE', *, *, #225, .T. ) ;
#281 = CARTESIAN_POINT ( 'NONE',  ( -1.614212418857619014, 1.224646799147353256E-15, -10.00000000000000000 ) ) ;
#282 = FACE_OUTER_BOUND ( 'NONE', #78, .T. ) ;
#283 = ORIENTED_EDGE ( 'NONE', *, *, #160, .T. ) ;
#284 = VERTEX_POINT ( 'NONE', #187 ) ;
#285 = PLANE ( 'NONE',  #76 ) ;
#286 = CC_DESIGN_SECURITY_CLASSIFICATION ( #15, ( #129 ) ) ;
#287 = EDGE_CURVE ( 'NONE', #128, #70, #269, .T. ) ;
#288 = CARTESIAN_POINT ( 'NONE',  ( -3.000000000000000444, 0.000000000000000000, 0.000000000000000000 ) ) ;
#289 = EDGE_CURVE ( 'NONE', #70, #128, #201, .T. ) ;
#290 = CARTESIAN_POINT ( 'NONE',  ( -3.000000000000000000, 10.00000000000000000, 0.000000000000000000 ) ) ;
#291 = PERSON_AND_ORGANIZATION ( #174, #246 ) ;
#292 = CARTESIAN_POINT ( 'NONE',  ( -3.000000000000000000, 0.000000000000000000, 0.000000000000000000 ) ) ;
#293 = EDGE_CURVE ( 'NONE', #144, #218, #206, .T. ) ;
#294 = CARTESIAN_POINT ( 'NONE',  ( 3.000000000000000000, 0.000000000000000000, 12.69999999999999929 ) ) ;
#295 = APPLICATION_PROTOCOL_DEFINITION ( 'international standard', 'config_control_design', 1994, #92 ) ;
#296 = DIRECTION ( 'NONE',  ( 0.000000000000000000, 0.000000000000000000, 1.000000000000000000 ) ) ;
#297 = DIRECTION ( 'NONE',  ( 0.000000000000000000, 0.000000000000000000, 1.000000000000000000 ) ) ;
#298 = DIRECTION ( 'NONE',  ( -1.000000000000000000, -0.000000000000000000, -0.000000000000000000 ) ) ;
#299 = DIRECTION ( 'NONE',  ( -1.000000000000000000, -0.000000000000000000, -0.000000000000000000 ) ) ;
#300 = MECHANICAL_CONTEXT ( 'NONE', #16, 'mechanical' ) ;
#301 = AXIS2_PLACEMENT_3D ( 'NONE', #53, #153, #256 ) ;
#302 = ADVANCED_FACE ( 'NONE', ( #310 ), #5, .F. ) ;
#303 = EDGE_LOOP ( 'NONE', ( #244, #141, #193, #333 ) ) ;
#304 = SHAPE_DEFINITION_REPRESENTATION ( #120, #178 ) ;
#305 = EDGE_CURVE ( 'NONE', #41, #95, #105, .T. ) ;
#306 = DIRECTION ( 'NONE',  ( 0.000000000000000000, 0.000000000000000000, -1.000000000000000000 ) ) ;
#307 = CARTESIAN_POINT ( 'NONE',  ( 2.500000000000000888, 0.000000000000000000, 10.00000000000000000 ) ) ;
#308 = CIRCLE ( 'NONE', #157, 10.00000000000000000 ) ;
#309 = DIRECTION ( 'NONE',  ( -1.000000000000000000, -0.000000000000000000, -0.000000000000000000 ) ) ;
#310 = FACE_OUTER_BOUND ( 'NONE', #249, .T. ) ;
#311 = AXIS2_PLACEMENT_3D ( 'NONE', #273, #320, #297 ) ;
#312 = DIRECTION ( 'NONE',  ( -1.000000000000000000, -0.000000000000000000, -0.000000000000000000 ) ) ;
#313 = FACE_OUTER_BOUND ( 'NONE', #124, .T. ) ;
#314 =( NAMED_UNIT ( * ) SI_UNIT ( $, .STERADIAN. ) SOLID_ANGLE_UNIT ( ) );
#315 = CARTESIAN_POINT ( 'NONE',  ( 3.000000000000000000, 0.000000000000000000, 0.000000000000000000 ) ) ;
#316 = DIRECTION ( 'NONE',  ( 0.000000000000000000, 0.000000000000000000, 1.000000000000000000 ) ) ;
#317 = PERSON_AND_ORGANIZATION ( #174, #246 ) ;
#318 = DIRECTION ( 'NONE',  ( -1.000000000000000000, -0.000000000000000000, -0.000000000000000000 ) ) ;
#319 = CIRCLE ( 'NONE', #213, 10.00000000000000000 ) ;
#320 = DIRECTION ( 'NONE',  ( -1.000000000000000000, -0.000000000000000000, -0.000000000000000000 ) ) ;
#321 = COORDINATED_UNIVERSAL_TIME_OFFSET ( 8, 0, .AHEAD. ) ;
#322 = APPROVAL_PERSON_ORGANIZATION ( #183, #270, #59 ) ;
#323 = DIRECTION ( 'NONE',  ( 0.000000000000000000, 0.000000000000000000, -1.000000000000000000 ) ) ;
#324 = APPLICATION_PROTOCOL_DEFINITION ( 'international standard', 'config_control_design', 1994, #16 ) ;
#325 = LINE ( 'NONE', #60, #237 ) ;
#326 = AXIS2_PLACEMENT_3D ( 'NONE', #158, #263, #35 ) ;
#327 = VERTEX_POINT ( 'NONE', #80 ) ;
#328 =( NAMED_UNIT ( * ) PLANE_ANGLE_UNIT ( ) SI_UNIT ( $, .RADIAN. ) );
#329 = AXIS2_PLACEMENT_3D ( 'NONE', #290, #56, #323 ) ;
#330 =( GEOMETRIC_REPRESENTATION_CONTEXT ( 3 ) GLOBAL_UNCERTAINTY_ASSIGNED_CONTEXT ( ( #1 ) ) GLOBAL_UNIT_ASSIGNED_CONTEXT ( ( #107, #328, #314 ) ) REPRESENTATION_CONTEXT ( 'NONE', 'WORKASPACE' ) );
#331 = EDGE_CURVE ( 'NONE', #327, #77, #45, .T. ) ;
#332 = CC_DESIGN_PERSON_AND_ORGANIZATION_ASSIGNMENT ( #291, #215, ( #194 ) ) ;
#333 = ORIENTED_EDGE ( 'NONE', *, *, #287, .F. ) ;
#334 = PRODUCT ( 'Q-OZHWP-R2-20-266-M', 'Q-OZHWP-R2-20-266-M', '', ( #300 ) ) ;
#335 = VECTOR ( 'NONE', #299, 1000.000000000000000 ) ;
ENDSEC;
END-ISO-10303-21;
